  0
SECTION
  2
HEADER
  9
$ACADVER
  1
AC1015
  9
$ACADMAINTVER
 70
     6
  9
$DWGCODEPAGE
  3
ANSI_1254
  9
$INSBASE
 10
0.0
 20
0.0
 30
0.0
  9
$EXTMIN
 10
0.0
 20
0.0
 30
0.0
  9
$EXTMAX
 10
279.4
 20
215.9
 30
0.0
  9
$LIMMIN
 10
0.0
 20
0.0
  9
$LIMMAX
 10
279.4
 20
215.9
  9
$ORTHOMODE
 70
     0
  9
$REGENMODE
 70
     1
  9
$FILLMODE
 70
     1
  9
$QTEXTMODE
 70
     0
  9
$MIRRTEXT
 70
     1
  9
$LTSCALE
 40
1.0
  9
$ATTMODE
 70
     1
  9
$TEXTSIZE
 40
3.5
  9
$TRACEWID
 40
1.0
  9
$TEXTSTYLE
  7
Standard
  9
$CLAYER
  8
0
  9
$CELTYPE
  6
ByLayer
  9
$CECOLOR
 62
   256
  9
$CELTSCALE
 40
1.0
  9
$DISPSILH
 70
     0
  9
$DIMSCALE
 40
1.0
  9
$DIMASZ
 40
3.5
  9
$DIMEXO
 40
1.0
  9
$DIMDLI
 40
3.75
  9
$DIMRND
 40
0.0
  9
$DIMDLE
 40
0.0
  9
$DIMEXE
 40
1.0
  9
$DIMTP
 40
0.0
  9
$DIMTM
 40
0.0
  9
$DIMTXT
 40
3.5
  9
$DIMCEN
 40
2.5
  9
$DIMTSZ
 40
0.0
  9
$DIMTOL
 70
     0
  9
$DIMLIM
 70
     0
  9
$DIMTIH
 70
     1
  9
$DIMTOH
 70
     1
  9
$DIMSE1
 70
     0
  9
$DIMSE2
 70
     0
  9
$DIMTAD
 70
     1
  9
$DIMZIN
 70
     0
  9
$DIMBLK
  1

  9
$DIMASO
 70
     1
  9
$DIMSHO
 70
     1
  9
$DIMPOST
  1

  9
$DIMAPOST
  1

  9
$DIMALT
 70
     0
  9
$DIMALTD
 70
     3
  9
$DIMALTF
 40
0.0393700787
  9
$DIMLFAC
 40
1.0
  9
$DIMTOFL
 70
     1
  9
$DIMTVP
 40
0.0
  9
$DIMTIX
 70
     0
  9
$DIMSOXD
 70
     0
  9
$DIMSAH
 70
     0
  9
$DIMBLK1
  1

  9
$DIMBLK2
  1

  9
$DIMSTYLE
  2
ISO-25
  9
$DIMCLRD
 70
     0
  9
$DIMCLRE
 70
     0
  9
$DIMCLRT
 70
     0
  9
$DIMTFAC
 40
1.0
  9
$DIMGAP
 40
1.524
  9
$DIMJUST
 70
     0
  9
$DIMSD1
 70
     0
  9
$DIMSD2
 70
     0
  9
$DIMTOLJ
 70
     0
  9
$DIMTZIN
 70
     0
  9
$DIMALTZ
 70
     0
  9
$DIMALTTZ
 70
     0
  9
$DIMUPT
 70
     0
  9
$DIMDEC
 70
     2
  9
$DIMTDEC
 70
     2
  9
$DIMALTU
 70
     2
  9
$DIMALTTD
 70
     3
  9
$DIMTXSTY
  7
Standard
  9
$DIMAUNIT
 70
     0
  9
$DIMADEC
 70
     2
  9
$DIMALTRND
 40
0.0
  9
$DIMAZIN
 70
     0
  9
$DIMDSEP
 70
    44
  9
$DIMATFIT
 70
     3
  9
$DIMFRAC
 70
     0
  9
$DIMLDRBLK
  1

  9
$DIMLUNIT
 70
     2
  9
$DIMLWD
 70
    -2
  9
$DIMLWE
 70
    -2
  9
$DIMTMOVE
 70
     0
  9
$LUNITS
 70
     2
  9
$LUPREC
 70
     2
  9
$SKETCHINC
 40
1.0
  9
$FILLETRAD
 40
10.0
  9
$AUNITS
 70
     0
  9
$AUPREC
 70
     2
  9
$MENU
  1
.
  9
$ELEVATION
 40
0.0
  9
$PELEVATION
 40
0.0
  9
$THICKNESS
 40
0.0
  9
$LIMCHECK
 70
     0
  9
$CHAMFERA
 40
0.0
  9
$CHAMFERB
 40
0.0
  9
$CHAMFERC
 40
0.0
  9
$CHAMFERD
 40
0.0
  9
$SKPOLY
 70
     0
  9
$TDCREATE
 40
2460608.53027581
  9
$TDUCREATE
 40
2460608.40527581
  9
$TDUPDATE
 40
2460608.53027581
  9
$TDUUPDATE
 40
2460608.40527581
  9
$TDINDWG
 40
0.0000000116
  9
$TDUSRTIMER
 40
0.0000000116
  9
$USRTIMER
 70
     1
  9
$ANGBASE
 50
0.0
  9
$ANGDIR
 70
     0
  9
$PDMODE
 70
     0
  9
$PDSIZE
 40
-1.0
  9
$PLINEWID
 40
0.0
  9
$SPLFRAME
 70
     0
  9
$SPLINETYPE
 70
     6
  9
$SPLINESEGS
 70
     8
  9
$HANDSEED
  5
D2
  9
$SURFTAB1
 70
     6
  9
$SURFTAB2
 70
     6
  9
$SURFTYPE
 70
     6
  9
$SURFU
 70
     6
  9
$SURFV
 70
     6
  9
$UCSBASE
  2

  9
$UCSNAME
  2

  9
$UCSORG
 10
0.0
 20
0.0
 30
0.0
  9
$UCSXDIR
 10
1.0
 20
0.0
 30
0.0
  9
$UCSYDIR
 10
0.0
 20
1.0
 30
0.0
  9
$UCSORTHOREF
  2

  9
$UCSORTHOVIEW
 70
     0
  9
$UCSORGTOP
 10
0.0
 20
0.0
 30
0.0
  9
$UCSORGBOTTOM
 10
0.0
 20
0.0
 30
0.0
  9
$UCSORGLEFT
 10
0.0
 20
0.0
 30
0.0
  9
$UCSORGRIGHT
 10
0.0
 20
0.0
 30
0.0
  9
$UCSORGFRONT
 10
0.0
 20
0.0
 30
0.0
  9
$UCSORGBACK
 10
0.0
 20
0.0
 30
0.0
  9
$PUCSBASE
  2

  9
$PUCSNAME
  2

  9
$PUCSORG
 10
0.0
 20
0.0
 30
0.0
  9
$PUCSXDIR
 10
1.0
 20
0.0
 30
0.0
  9
$PUCSYDIR
 10
0.0
 20
1.0
 30
0.0
  9
$PUCSORTHOREF
  2

  9
$PUCSORTHOVIEW
 70
     0
  9
$PUCSORGTOP
 10
0.0
 20
0.0
 30
0.0
  9
$PUCSORGBOTTOM
 10
0.0
 20
0.0
 30
0.0
  9
$PUCSORGLEFT
 10
0.0
 20
0.0
 30
0.0
  9
$PUCSORGRIGHT
 10
0.0
 20
0.0
 30
0.0
  9
$PUCSORGFRONT
 10
0.0
 20
0.0
 30
0.0
  9
$PUCSORGBACK
 10
0.0
 20
0.0
 30
0.0
  9
$USERI1
 70
     0
  9
$USERI2
 70
     0
  9
$USERI3
 70
     0
  9
$USERI4
 70
     0
  9
$USERI5
 70
     0
  9
$USERR1
 40
0.0
  9
$USERR2
 40
0.0
  9
$USERR3
 40
0.0
  9
$USERR4
 40
0.0
  9
$USERR5
 40
0.0
  9
$WORLDVIEW
 70
     1
  9
$SHADEDGE
 70
     3
  9
$SHADEDIF
 70
    70
  9
$TILEMODE
 70
     1
  9
$MAXACTVP
 70
    64
  9
$PINSBASE
 10
0.0
 20
0.0
 30
0.0
  9
$PLIMCHECK
 70
     0
  9
$PEXTMIN
 10
1.0000000000E+20
 20
1.0000000000E+20
 30
1.0000000000E+20
  9
$PEXTMAX
 10
-1.0000000000E+20
 20
-1.0000000000E+20
 30
-1.0000000000E+20
  9
$PLIMMIN
 10
0.0
 20
0.0
  9
$PLIMMAX
 10
420.0
 20
297.0
  9
$UNITMODE
 70
     0
  9
$VISRETAIN
 70
     1
  9
$PLINEGEN
 70
     0
  9
$PSLTSCALE
 70
     1
  9
$TREEDEPTH
 70
  3020
  9
$CMLSTYLE
  2
Standard
  9
$CMLJUST
 70
     0
  9
$CMLSCALE
 40
20.0
  9
$PROXYGRAPHICS
 70
     1
  9
$MEASUREMENT
 70
     1
  9
$CELWEIGHT
370
    -1
  9
$ENDCAPS
280
     0
  9
$JOINSTYLE
280
     0
  9
$LWDISPLAY
290
     1
  9
$INSUNITS
 70
     4
  9
$HYPERLINKBASE
  1

  9
$STYLESHEET
  1

  9
$XEDIT
290
     1
  9
$CEPSNTYPE
380
     0
  9
$PSTYLEMODE
290
     1
  9
$FINGERPRINTGUID
  2
{3fa534fc-9efd-4cac-92a7-896b98a98d76}
  9
$VERSIONGUID
  2
{FAEB1C32-E019-11D5-929B-00C0DF256EC4}
  9
$EXTNAMES
290
     1
  9
$PSVPSCALE
 40
0.0
  9
$OLESTARTUP
290
     0
  0
ENDSEC
  0
SECTION
  2
CLASSES
  0
CLASS
  1
ACDBDICTIONARYWDFLT
  2
AcDbDictionaryWithDefault
  3
ObjectDBX Classes
 90
        0
280
     0
281
     0
  0
CLASS
  1
VISUALSTYLE
  2
AcDbVisualStyle
  3
ObjectDBX Classes
 90
     4095
280
     0
281
     0
  0
CLASS
  1
MATERIAL
  2
AcDbMaterial
  3
ObjectDBX Classes
 90
     1153
280
     0
281
     0
  0
CLASS
  1
SCALE
  2
AcDbScale
  3
ObjectDBX Classes
 90
     1153
280
     0
281
     0
  0
CLASS
  1
TABLESTYLE
  2
AcDbTableStyle
  3
ObjectDBX Classes
 90
     4095
280
     0
281
     0
  0
CLASS
  1
MLEADERSTYLE
  2
AcDbMLeaderStyle
  3
ACDB_MLEADERSTYLE_CLASS
 90
     4095
280
     0
281
     0
  0
CLASS
  1
SUN
  2
AcDbSun
  3
SCENEOE
 90
     1153
280
     0
281
     0
  0
CLASS
  1
ACDBPLACEHOLDER
  2
AcDbPlaceHolder
  3
ObjectDBX Classes
 90
        0
280
     0
281
     0
  0
CLASS
  1
LAYOUT
  2
AcDbLayout
  3
ObjectDBX Classes
 90
        0
280
     0
281
     0
  0
ENDSEC
  0
SECTION
  2
TABLES
  0
TABLE
  2
VPORT
  5
8
330
0
100
AcDbSymbolTable
 70
     1
  0
VPORT
  5
29
330
8
100
AcDbSymbolTableRecord
100
AcDbViewportTableRecord
  2
*Active
 70
     0
 10
0.0
 20
0.0
 11
1.0
 21
1.0
 12
139.7
 22
107.95
 13
0.0
 23
0.0
 14
10.0
 24
10.0
 15
10.0
 25
10.0
 16
0.0
 26
0.0
 36
1.0
 17
0.0
 27
0.0
 37
0.0
 40
215.9
 41
1.2941176471
 42
50.0
 43
0.0
 44
0.0
 50
0.0
 51
0.0
 71
     0
 72
  2000
 73
     1
 74
     3
 75
     0
 76
     0
 77
     0
 78
     0
281
     0
 65
     1
110
0.0
120
0.0
130
0.0
111
1.0
121
0.0
131
0.0
112
0.0
122
1.0
132
0.0
 79
     0
146
0.0
  0
ENDTAB
  0
TABLE
  2
LTYPE
  5
5
330
0
100
AcDbSymbolTable
 70
     6
  0
LTYPE
  5
14
330
5
100
AcDbSymbolTableRecord
100
AcDbLinetypeTableRecord
  2
ByBlock
 70
     0
  3

 72
    65
 73
     0
 40
0.0
  0
LTYPE
  5
15
330
5
100
AcDbSymbolTableRecord
100
AcDbLinetypeTableRecord
  2
ByLayer
 70
     0
  3

 72
    65
 73
     0
 40
0.0
  0
LTYPE
  5
16
330
5
100
AcDbSymbolTableRecord
100
AcDbLinetypeTableRecord
  2
Continuous
 70
     0
  3
Solid line
 72
    65
 73
     0
 40
0.0
  0
LTYPE
  5
6E
330
5
100
AcDbSymbolTableRecord
100
AcDbLinetypeTableRecord
  2
HIDDEN
 70
     0
  3
Hidden __ __ __ __ __ __ __ __ __ __ __ __ __ __
 72
    65
 73
     2
 40
1.905
 49
1.27
 74
     0
 49
-0.635
 74
     0
  0
LTYPE
  5
6F
330
5
100
AcDbSymbolTableRecord
100
AcDbLinetypeTableRecord
  2
PHANTOM
 70
     0
  3
Phantom ______  __  __  ______  __  __  ______
 72
    65
 73
     6
 40
12.7
 49
6.35
 74
     0
 49
-1.27
 74
     0
 49
1.27
 74
     0
 49
-1.27
 74
     0
 49
1.27
 74
     0
 49
-1.27
 74
     0
  0
LTYPE
  5
70
330
5
100
AcDbSymbolTableRecord
100
AcDbLinetypeTableRecord
  2
CENTER
 70
     0
  3
Center ____ _ ____ _ ____ _ ____ _ ____ _ ____
 72
    65
 73
     4
 40
10.16
 49
6.35
 74
     0
 49
-1.27
 74
     0
 49
1.27
 74
     0
 49
-1.27
 74
     0
  0
LTYPE
  5
71
330
5
100
AcDbSymbolTableRecord
100
AcDbLinetypeTableRecord
  2
CENTERX2
 70
     0
  3
Center (2x) ________  __  ________  __  _____
 72
    65
 73
     4
 40
20.32
 49
12.7
 74
     0
 49
-2.54
 74
     0
 49
2.54
 74
     0
 49
-2.54
 74
     0
  0
LTYPE
  5
72
330
5
100
AcDbSymbolTableRecord
100
AcDbLinetypeTableRecord
  2
DOT2
 70
     0
  3
Dot (.5x) ........................................
 72
    65
 73
     2
 40
0.635
 49
0.0
 74
     0
 49
-0.635
 74
     0
  0
ENDTAB
  0
TABLE
  2
LAYER
  5
2
330
0
100
AcDbSymbolTable
 70
    17
  0
LAYER
  5
10
330
2
100
AcDbSymbolTableRecord
100
AcDbLayerTableRecord
  2
0
 70
     0
 62
     7
  6
Continuous
370
    -3
390
F
  0
LAYER
  5
73
330
2
100
AcDbSymbolTableRecord
100
AcDbLayerTableRecord
  2
FORMAT
 70
     0
 62
     7
  6
Continuous
370
    -3
390
F
  0
LAYER
  5
74
330
2
100
AcDbSymbolTableRecord
100
AcDbLayerTableRecord
  2
YARDIMCI_GEOMETRI
 70
     0
 62
    -6
  6
Continuous
290
     0
370
    -3
390
F
  0
LAYER
  5
75
330
2
100
AcDbSymbolTableRecord
100
AcDbLayerTableRecord
  2
SAYFA_CERCEVESI
 70
     0
 62
     7
  6
Continuous
370
    25
390
F
  0
LAYER
  5
76
330
2
100
AcDbSymbolTableRecord
100
AcDbLayerTableRecord
  2
ANTET
 70
     0
 62
     7
  6
Continuous
370
    -3
390
F
  0
LAYER
  5
77
330
2
100
AcDbSymbolTableRecord
100
AcDbLayerTableRecord
  2
OLCU
 70
     0
 62
   150
  6
Continuous
370
    -3
390
F
  0
LAYER
  5
78
330
2
100
AcDbSymbolTableRecord
100
AcDbLayerTableRecord
  2
METIN
 70
     0
 62
    96
  6
Continuous
370
    -3
390
F
  0
LAYER
  5
79
330
2
100
AcDbSymbolTableRecord
100
AcDbLayerTableRecord
  2
BALON
 70
     0
 62
     5
  6
Continuous
370
    -3
390
F
  0
LAYER
  5
7A
330
2
100
AcDbSymbolTableRecord
100
AcDbLayerTableRecord
  2
VURGU
 70
     0
 62
     7
  6
Continuous
370
    -3
390
F
  0
LAYER
  5
7B
330
2
100
AcDbSymbolTableRecord
100
AcDbLayerTableRecord
  2
SILIK
 70
     0
 62
     7
  6
Continuous
370
    -3
390
F
  0
LAYER
  5
7C
330
2
100
AcDbSymbolTableRecord
100
AcDbLayerTableRecord
  2
MODEL
 70
     0
 62
     7
  6
Continuous
370
    -3
390
F
  0
LAYER
  5
7D
330
2
100
AcDbSymbolTableRecord
100
AcDbLayerTableRecord
  2
DETAYLANDıRMA
 70
     0
 62
   190
  6
Continuous
370
    -3
390
F
  0
LAYER
  5
7E
330
2
100
AcDbSymbolTableRecord
100
AcDbLayerTableRecord
  2
TOLERANS
 70
     0
 62
   230
  6
Continuous
370
    -3
390
F
  0
LAYER
  5
7F
330
2
100
AcDbSymbolTableRecord
100
AcDbLayerTableRecord
  2
MERKEZ_CIZGILERI
 70
     0
 62
    30
  6
Continuous
370
    -3
390
F
  0
LAYER
  5
80
330
2
100
AcDbSymbolTableRecord
100
AcDbLayerTableRecord
  2
KESIT-DETAY_CIZGILERI
 70
     0
 62
     7
  6
Continuous
370
    -3
390
F
  0
LAYER
  5
81
330
2
100
AcDbSymbolTableRecord
100
AcDbLayerTableRecord
  2
\U+041E\U+0421\U+0415\U+0412\U+042B\U+0415
 70
     0
 62
     7
  6
Continuous
370
    -3
390
F
  0
LAYER
  5
82
330
2
100
AcDbSymbolTableRecord
100
AcDbLayerTableRecord
  2
\U+0412\U+041E\U+0414\U+042F\U+041D\U+042B\U+0415_\U+0417\U+041D\U+0410\U+041A\U+0418
 70
     0
 62
    11
  6
Continuous
370
    -3
390
F
  0
ENDTAB
  0
TABLE
  2
STYLE
  5
3
330
0
100
AcDbSymbolTable
 70
     1
  0
STYLE
  5
11
330
3
100
AcDbSymbolTableRecord
100
AcDbTextStyleTableRecord
  2
Standard
 70
     0
 40
0.0
 41
1.0
 50
0.0
 71
     0
 42
3.5
  3
txt
  4

  0
ENDTAB
  0
TABLE
  2
VIEW
  5
6
330
0
100
AcDbSymbolTable
 70
     0
  0
ENDTAB
  0
TABLE
  2
UCS
  5
7
330
0
100
AcDbSymbolTable
 70
     0
  0
ENDTAB
  0
TABLE
  2
APPID
  5
9
330
0
100
AcDbSymbolTable
 70
     1
  0
APPID
  5
12
330
9
100
AcDbSymbolTableRecord
100
AcDbRegAppTableRecord
  2
ACAD
 70
     0
  0
ENDTAB
  0
TABLE
  2
DIMSTYLE
  5
A
330
0
100
AcDbSymbolTable
 70
     1
100
AcDbDimStyleTable
  0
DIMSTYLE
105
27
330
A
100
AcDbSymbolTableRecord
100
AcDbDimStyleTableRecord
  2
ISO-25
 70
     0
 41
2.5
 42
0.625
 43
3.75
 44
1.25
 73
     0
 74
     0
 77
     1
 78
     8
140
2.5
141
2.5
143
0.0393700787
147
0.625
171
     3
172
     1
178
     0
271
     2
272
     2
274
     3
278
    44
283
     0
284
     8
340
11
  0
ENDTAB
  0
TABLE
  2
BLOCK_RECORD
  5
1
330
0
100
AcDbSymbolTable
 70
     3
  0
BLOCK_RECORD
  5
1F
330
1
100
AcDbSymbolTableRecord
100
AcDbBlockTableRecord
  2
*Model_Space
340
22
  0
BLOCK_RECORD
  5
1B
330
1
100
AcDbSymbolTableRecord
100
AcDbBlockTableRecord
  2
*Paper_Space
340
1E
  0
BLOCK_RECORD
  5
23
330
1
100
AcDbSymbolTableRecord
100
AcDbBlockTableRecord
  2
*Paper_Space0
340
26
  0
BLOCK_RECORD
  5
88
330
1
100
AcDbSymbolTableRecord
100
AcDbBlockTableRecord
  2
SW_CENTERMARKSYMBOL_0
340
0
102
{BLKREFS
331
93
102
}
  0
BLOCK_RECORD
  5
9E
330
1
100
AcDbSymbolTableRecord
100
AcDbBlockTableRecord
  2
SW_CENTERMARKSYMBOL_1
340
0
102
{BLKREFS
331
A9
102
}
  0
ENDTAB
  0
ENDSEC
  0
SECTION
  2
BLOCKS
  0
BLOCK
  5
20
330
1F
100
AcDbEntity
  8
0
100
AcDbBlockBegin
  2
*Model_Space
 70
     0
 10
0.0
 20
0.0
 30
0.0
  3
*Model_Space
  1

  0
ENDBLK
  5
21
330
1F
100
AcDbEntity
  8
0
100
AcDbBlockEnd
  0
BLOCK
  5
1C
330
1B
100
AcDbEntity
 67
     1
  8
0
100
AcDbBlockBegin
  2
*Paper_Space
 70
     0
 10
0.0
 20
0.0
 30
0.0
  3
*Paper_Space
  1

  0
ENDBLK
  5
1D
330
1B
100
AcDbEntity
 67
     1
  8
0
100
AcDbBlockEnd
  0
BLOCK
  5
24
330
23
100
AcDbEntity
  8
0
100
AcDbBlockBegin
  2
*Paper_Space0
 70
     0
 10
0.0
 20
0.0
 30
0.0
  3
*Paper_Space0
  1

  0
ENDBLK
  5
25
330
23
100
AcDbEntity
  8
0
100
AcDbBlockEnd
  0
BLOCK
  5
89
330
88
100
AcDbEntity
  8
0
100
AcDbBlockBegin
  2
SW_CENTERMARKSYMBOL_0
 70
     0
 10
0.0
 20
0.0
 30
0.0
  3
SW_CENTERMARKSYMBOL_0
  1

  0
LINE
  5
8B
330
88
100
AcDbEntity
  8
FORMAT
 62
     0
100
AcDbLine
 10
0.0
 20
0.0
 30
0.0
 11
0.0
 21
2.5
 31
0.0
  0
LINE
  5
8C
330
88
100
AcDbEntity
  8
FORMAT
 62
     0
100
AcDbLine
 10
0.0
 20
0.0
 30
0.0
 11
-2.5
 21
0.0
 31
0.0
  0
LINE
  5
8D
330
88
100
AcDbEntity
  8
FORMAT
 62
     0
100
AcDbLine
 10
0.0
 20
0.0
 30
0.0
 11
0.0
 21
-2.5
 31
0.0
  0
LINE
  5
8E
330
88
100
AcDbEntity
  8
FORMAT
 62
     0
100
AcDbLine
 10
0.0
 20
0.0
 30
0.0
 11
2.5
 21
0.0
 31
0.0
  0
LINE
  5
8F
330
88
100
AcDbEntity
  8
FORMAT
 62
     0
100
AcDbLine
 10
0.0
 20
5.0
 30
0.0
 11
0.0
 21
34.0
 31
0.0
  0
LINE
  5
90
330
88
100
AcDbEntity
  8
FORMAT
 62
     0
100
AcDbLine
 10
-5.0
 20
0.0
 30
0.0
 11
-34.0
 21
0.0
 31
0.0
  0
LINE
  5
91
330
88
100
AcDbEntity
  8
FORMAT
 62
     0
100
AcDbLine
 10
0.0
 20
-5.0
 30
0.0
 11
0.0
 21
-34.0
 31
0.0
  0
LINE
  5
92
330
88
100
AcDbEntity
  8
FORMAT
 62
     0
100
AcDbLine
 10
5.0
 20
0.0
 30
0.0
 11
34.0
 21
0.0
 31
0.0
  0
ENDBLK
  5
8A
330
88
100
AcDbEntity
  8
0
100
AcDbBlockEnd
  0
BLOCK
  5
9F
330
9E
100
AcDbEntity
  8
0
100
AcDbBlockBegin
  2
SW_CENTERMARKSYMBOL_1
 70
     0
 10
0.0
 20
0.0
 30
0.0
  3
SW_CENTERMARKSYMBOL_1
  1

  0
LINE
  5
A1
330
9E
100
AcDbEntity
  8
FORMAT
 62
     0
100
AcDbLine
 10
0.0
 20
0.0
 30
0.0
 11
0.0
 21
2.5
 31
0.0
  0
LINE
  5
A2
330
9E
100
AcDbEntity
  8
FORMAT
 62
     0
100
AcDbLine
 10
0.0
 20
0.0
 30
0.0
 11
-2.5
 21
0.0
 31
0.0
  0
LINE
  5
A3
330
9E
100
AcDbEntity
  8
FORMAT
 62
     0
100
AcDbLine
 10
0.0
 20
0.0
 30
0.0
 11
0.0
 21
-2.5
 31
0.0
  0
LINE
  5
A4
330
9E
100
AcDbEntity
  8
FORMAT
 62
     0
100
AcDbLine
 10
0.0
 20
0.0
 30
0.0
 11
2.5
 21
0.0
 31
0.0
  0
LINE
  5
A5
330
9E
100
AcDbEntity
  8
FORMAT
 62
     0
100
AcDbLine
 10
0.0
 20
5.0
 30
0.0
 11
0.0
 21
34.0
 31
0.0
  0
LINE
  5
A6
330
9E
100
AcDbEntity
  8
FORMAT
 62
     0
100
AcDbLine
 10
-5.0
 20
0.0
 30
0.0
 11
-34.0
 21
0.0
 31
0.0
  0
LINE
  5
A7
330
9E
100
AcDbEntity
  8
FORMAT
 62
     0
100
AcDbLine
 10
0.0
 20
-5.0
 30
0.0
 11
0.0
 21
-34.0
 31
0.0
  0
LINE
  5
A8
330
9E
100
AcDbEntity
  8
FORMAT
 62
     0
100
AcDbLine
 10
5.0
 20
0.0
 30
0.0
 11
34.0
 21
0.0
 31
0.0
  0
ENDBLK
  5
A0
330
9E
100
AcDbEntity
  8
0
100
AcDbBlockEnd
  0
ENDSEC
  0
SECTION
  2
ENTITIES
  0
LINE
  5
83
330
1F
100
AcDbEntity
  8
0
  6
Continuous
 62
     7
370
    25
100
AcDbLine
 10
104.4034579014
 20
82.7489361702
 30
0.0
 11
211.4034579014
 21
82.7489361702
 31
0.0
  0
LINE
  5
84
330
1F
100
AcDbEntity
  8
0
  6
Continuous
 62
     7
370
    25
100
AcDbLine
 10
211.4034579014
 20
145.7489361702
 30
0.0
 11
104.4034579014
 21
145.7489361702
 31
0.0
  0
CIRCLE
  5
85
330
1F
100
AcDbEntity
  8
0
  6
Continuous
 62
     7
370
    25
100
AcDbCircle
 10
104.4034579014
 20
114.2489361702
 30
0.0
 40
25.69999999999999
  0
CIRCLE
  5
86
330
1F
100
AcDbEntity
  8
0
  6
Continuous
 62
     7
370
    25
100
AcDbCircle
 10
104.4034579014
 20
114.2489361702
 30
0.0
 40
31.5
  0
LINE
  5
87
330
1F
100
AcDbEntity
  8
0
  6
Continuous
 62
     7
370
    25
100
AcDbLine
 10
211.4034579014
 20
145.7489361702
 30
0.0
 11
211.4034579014
 21
82.7489361702
 31
0.0
  0
INSERT
  5
93
330
1F
100
AcDbEntity
  8
FORMAT
 62
     7
100
AcDbBlockReference
  2
SW_CENTERMARKSYMBOL_0
 10
104.4034579014
 20
114.2489361702
 30
0.0
  0
LINE
  5
94
330
1F
100
AcDbEntity
  8
0
  6
Continuous
 62
     7
370
    25
100
AcDbLine
 10
-98.0915984968
 20
145.7489361702
 30
0.0
 11
-206.0915984968
 21
145.7489361702
 31
0.0
  0
LINE
  5
95
330
1F
100
AcDbEntity
  8
0
  6
Continuous
 62
     7
370
    25
100
AcDbLine
 10
9.9084015032
 20
145.7489361702
 30
0.0
 11
-98.0915984968
 21
145.7489361702
 31
0.0
  0
LINE
  5
96
330
1F
100
AcDbEntity
  8
0
  6
Continuous
 62
     7
370
    25
100
AcDbLine
 10
-98.0915984968
 20
82.7489361702
 30
0.0
 11
9.9084015032
 21
82.7489361702
 31
0.0
  0
LINE
  5
97
330
1F
100
AcDbEntity
  8
0
  6
Continuous
 62
     7
370
    25
100
AcDbLine
 10
-206.0915984968
 20
82.7489361702
 30
0.0
 11
-98.0915984968
 21
82.7489361702
 31
0.0
  0
CIRCLE
  5
98
330
1F
100
AcDbEntity
  8
0
  6
Continuous
 62
     7
370
    25
100
AcDbCircle
 10
-98.0915984968
 20
114.2489361702
 30
0.0
 40
25.7
  0
CIRCLE
  5
99
330
1F
100
AcDbEntity
  8
0
  6
Continuous
 62
     7
370
    25
100
AcDbCircle
 10
-98.0915984968
 20
114.2489361702
 30
0.0
 40
31.5
  0
LINE
  5
9A
330
1F
100
AcDbEntity
  8
0
  6
Continuous
 62
     7
370
    25
100
AcDbLine
 10
-206.0915984968
 20
114.2489361702
 30
0.0
 11
-206.0915984968
 21
145.7489361702
 31
0.0
  0
LINE
  5
9B
330
1F
100
AcDbEntity
  8
0
  6
Continuous
 62
     7
370
    25
100
AcDbLine
 10
-206.0915984968
 20
82.7489361702
 30
0.0
 11
-206.0915984968
 21
114.2489361702
 31
0.0
  0
LINE
  5
9C
330
1F
100
AcDbEntity
  8
0
  6
Continuous
 62
     7
370
    25
100
AcDbLine
 10
9.9084015032
 20
114.2489361702
 30
0.0
 11
9.9084015032
 21
145.7489361702
 31
0.0
  0
LINE
  5
9D
330
1F
100
AcDbEntity
  8
0
  6
Continuous
 62
     7
370
    25
100
AcDbLine
 10
9.9084015032
 20
82.7489361702
 30
0.0
 11
9.9084015032
 21
114.2489361702
 31
0.0
  0
INSERT
  5
A9
330
1F
100
AcDbEntity
  8
FORMAT
 62
     7
100
AcDbBlockReference
  2
SW_CENTERMARKSYMBOL_1
 10
-98.0915984968
 20
114.2489361702
 30
0.0
  0
LINE
  5
AA
330
1F
100
AcDbEntity
  8
0
  6
Continuous
 62
     7
370
    25
100
AcDbLine
 10
135.9034579014
 20
362.1894060835
 30
0.0
 11
135.9034579014
 21
438.6894060835
 31
0.0
  0
LINE
  5
AB
330
1F
100
AcDbEntity
  8
0
  6
Continuous
 62
     7
370
    25
100
AcDbLine
 10
135.9034579014
 20
222.6894060835
 30
0.0
 11
135.9034579014
 21
299.1894060835
 31
0.0
  0
LINE
  5
AC
330
1F
100
AcDbEntity
  8
0
  6
Continuous
 62
     7
370
    25
100
AcDbLine
 10
72.9034579014
 20
438.6894060835
 30
0.0
 11
72.9034579014
 21
222.6894060835
 31
0.0
  0
LINE
  5
AD
330
1F
100
AcDbEntity
  8
0
  6
Continuous
 62
     7
370
    25
100
AcDbLine
 10
135.9034579014
 20
299.1894060835
 30
0.0
 11
211.4034579014
 21
299.1894060835
 31
0.0
  0
LINE
  5
AE
330
1F
100
AcDbEntity
  8
0
  6
Continuous
 62
     7
370
    25
100
AcDbLine
 10
211.4034579014
 20
362.1894060835
 30
0.0
 11
135.9034579014
 21
362.1894060835
 31
0.0
  0
LINE
  5
AF
330
1F
100
AcDbEntity
  8
0
  6
Continuous
 62
     7
370
    25
100
AcDbLine
 10
135.9034579014
 20
362.1894060835
 30
0.0
 11
104.4034579014
 21
330.6894060835
 31
0.0
  0
LINE
  5
B0
330
1F
100
AcDbEntity
  8
0
  6
Continuous
 62
     7
370
    25
100
AcDbLine
 10
104.4034579014
 20
330.6894060835
 30
0.0
 11
135.9034579014
 21
299.1894060835
 31
0.0
  0
LINE
  5
B1
330
1F
100
AcDbEntity
  8
0
  6
Continuous
 62
     7
370
    25
100
AcDbLine
 10
72.9034579014
 20
438.6894060835
 30
0.0
 11
135.9034579014
 21
438.6894060835
 31
0.0
  0
LINE
  5
B2
330
1F
100
AcDbEntity
  8
0
  6
Continuous
 62
     7
370
    25
100
AcDbLine
 10
72.9034579014
 20
222.6894060835
 30
0.0
 11
135.9034579014
 21
222.6894060835
 31
0.0
  0
LINE
  5
B3
330
1F
100
AcDbEntity
  8
0
  6
Continuous
 62
     7
370
    25
100
AcDbLine
 10
211.4034579014
 20
362.1894060835
 30
0.0
 11
211.4034579014
 21
299.1894060835
 31
0.0
  0
LINE
  5
B4
330
1F
100
AcDbEntity
  8
0
  6
Continuous
 62
     7
370
    25
100
AcDbLine
 10
398.3035522427
 20
82.7489361702
 30
0.0
 11
506.3035522427
 21
82.7489361702
 31
0.0
  0
LINE
  5
B5
330
1F
100
AcDbEntity
  8
0
  6
Continuous
 62
     7
370
    25
100
AcDbLine
 10
290.3035522427
 20
82.7489361702
 30
0.0
 11
398.3035522427
 21
82.7489361702
 31
0.0
  0
LINE
  5
B6
330
1F
100
AcDbEntity
  8
0
  6
Continuous
 62
     7
370
    25
100
AcDbLine
 10
398.3035522427
 20
145.7489361702
 30
0.0
 11
290.3035522427
 21
145.7489361702
 31
0.0
  0
LINE
  5
B7
330
1F
100
AcDbEntity
  8
0
  6
Continuous
 62
     7
370
    25
100
AcDbLine
 10
506.3035522427
 20
145.7489361702
 30
0.0
 11
398.3035522427
 21
145.7489361702
 31
0.0
  0
LINE
  5
B8
330
1F
100
AcDbEntity
  8
0
  6
Continuous
 62
     7
370
    25
100
AcDbLine
 10
506.3035522427
 20
145.7489361702
 30
0.0
 11
506.3035522427
 21
82.7489361702
 31
0.0
  0
LINE
  5
B9
330
1F
100
AcDbEntity
  8
0
  6
Continuous
 62
     7
370
    25
100
AcDbLine
 10
290.3035522427
 20
145.7489361702
 30
0.0
 11
290.3035522427
 21
82.7489361702
 31
0.0
  0
LINE
  5
BA
330
1F
100
AcDbEntity
  8
0
  6
Continuous
 62
     7
370
    25
100
AcDbLine
 10
72.9034579014
 20
13.8400397986
 30
0.0
 11
72.9034579014
 21
-202.1599602014
 31
0.0
  0
LINE
  5
BB
330
1F
100
AcDbEntity
  8
0
  6
Continuous
 62
     7
370
    25
100
AcDbLine
 10
135.9034579014
 20
-62.6599602014
 30
0.0
 11
135.9034579014
 21
13.8400397986
 31
0.0
  0
LINE
  5
BC
330
1F
100
AcDbEntity
  8
0
  6
Continuous
 62
     7
370
    25
100
AcDbLine
 10
135.9034579014
 20
-202.1599602014
 30
0.0
 11
135.9034579014
 21
-125.6599602014
 31
0.0
  0
LINE
  5
BD
330
1F
100
AcDbEntity
  8
0
  6
Continuous
 62
     7
370
    25
100
AcDbLine
 10
135.9034579014
 20
-125.6599602014
 30
0.0
 11
211.4034579014
 21
-125.6599602014
 31
0.0
  0
LINE
  5
BE
330
1F
100
AcDbEntity
  8
0
  6
Continuous
 62
     7
370
    25
100
AcDbLine
 10
211.4034579014
 20
-62.6599602014
 30
0.0
 11
135.9034579014
 21
-62.6599602014
 31
0.0
  0
LINE
  5
BF
330
1F
100
AcDbEntity
  8
0
  6
Continuous
 62
     7
370
    25
100
AcDbLine
 10
104.4034579014
 20
-94.1599602014
 30
0.0
 11
135.9034579014
 21
-125.6599602014
 31
0.0
  0
LINE
  5
C0
330
1F
100
AcDbEntity
  8
0
  6
Continuous
 62
     7
370
    25
100
AcDbLine
 10
135.9034579014
 20
-62.6599602014
 30
0.0
 11
104.4034579014
 21
-94.1599602014
 31
0.0
  0
LINE
  5
C1
330
1F
100
AcDbEntity
  8
0
  6
Continuous
 62
     7
370
    25
100
AcDbLine
 10
135.9034579014
 20
-202.1599602014
 30
0.0
 11
72.9034579014
 21
-202.1599602014
 31
0.0
  0
LINE
  5
C2
330
1F
100
AcDbEntity
  8
0
  6
Continuous
 62
     7
370
    25
100
AcDbLine
 10
135.9034579014
 20
13.8400397986
 30
0.0
 11
72.9034579014
 21
13.8400397986
 31
0.0
  0
LINE
  5
C3
330
1F
100
AcDbEntity
  8
0
  6
Continuous
 62
     7
370
    25
100
AcDbLine
 10
211.4034579014
 20
-62.6599602014
 30
0.0
 11
211.4034579014
 21
-125.6599602014
 31
0.0
  0
LINE
  5
C4
330
1F
100
AcDbEntity
  8
0
  6
Continuous
 62
     7
370
    25
100
AcDbLine
 10
401.6669505315
 20
-70.2672243085
 30
0.0
 11
341.0481382023
 21
-35.2727288296
 31
0.0
  0
LINE
  5
C5
330
1F
100
AcDbEntity
  8
0
  6
Continuous
 62
     7
370
    25
100
AcDbLine
 10
493.7832029386
 20
-123.4448049065
 30
0.0
 11
464.6720707915
 21
-106.639306033
 31
0.0
  0
LINE
  5
C6
330
1F
100
AcDbEntity
  8
0
  6
Continuous
 62
     7
370
    25
100
AcDbLine
 10
309.5506981243
 20
-89.8338071596
 30
0.0
 11
462.2857628606
 21
-178.0058832365
 31
0.0
  0
LINE
  5
C7
330
1F
100
AcDbEntity
  8
0
  6
Continuous
 62
     7
370
    25
100
AcDbLine
 10
433.1643906095
 20
-124.8283026384
 30
0.0
 11
493.0760961575
 21
-90.2420112155
 31
0.0
  0
LINE
  5
C8
330
1F
100
AcDbEntity
  8
0
  6
Continuous
 62
     7
370
    25
100
AcDbLine
 10
461.5786560794
 20
-35.6809328855
 30
0.0
 11
401.6669505315
 21
-70.2672243085
 31
0.0
  0
LINE
  5
C9
330
1F
100
AcDbEntity
  8
0
  6
Continuous
 62
     7
370
    25
100
AcDbLine
 10
401.6669505315
 20
-70.2672243085
 30
0.0
 11
401.6669505315
 21
-132.3603416075
 31
0.0
  0
ELLIPSE
  5
CA
330
1F
100
AcDbEntity
  8
0
  6
Continuous
 62
     7
370
    25
100
AcDbEllipse
 10
401.6669505315
 20
-106.639306033
 30
0.0
 11
44.54772721475246
 21
5.684341886080801E-14
 31
0.0
210
0.0
220
0.0
230
1.0
 40
0.5773815452
 41
4.712388980384697
 42
5.49770587972005
  0
LWPOLYLINE
  5
CB
330
1F
100
AcDbEntity
  8
0
  6
Continuous
 62
     7
370
    25
100
AcDbPolyline
 90
       84
 70
   128
 43
0.0
 10
347.5732817707
 20
-49.6948402334
 10
347.5094904339
 20
-47.786416525
 10
347.3184818144
 20
-45.9625760044
 10
347.0013499924
 20
-44.2337654652
 10
346.5599114702
 20
-42.6098873775
 10
345.9966947676
 20
-41.1002431678
 10
345.314925939
 20
-39.7134799416
 10
344.5185100945
 20
-38.457540953
 10
343.6120090318
 20
-37.3396201069
 10
342.600615107
 20
-36.3661207524
 10
341.4901214929
 20
-35.5426190059
 10
340.2868889964
 20
-34.8738318108
 10
338.9978096241
 20
-34.3635899195
 10
337.6302671061
 20
-34.0148159513
 10
336.1920946021
 20
-33.829507652
 10
334.6915298338
 20
-33.8087264508
 10
333.1371679004
 20
-33.9525913805
 10
331.5379120463
 20
-34.2602783957
 10
329.9029226642
 20
-34.7300250932
 10
328.2415648252
 20
-35.3591408063
 10
326.5633546366
 20
-36.1440220173
 10
324.8779047343
 20
-37.0801729977
 10
323.1948692227
 20
-38.1622315594
 10
321.5238883769
 20
-39.3839997689
 10
319.8745334238
 20
-40.7384794486
 10
318.2562517193
 20
-42.2179122616
 10
316.6783126343
 20
-43.8138241507
 10
315.149754461
 20
-45.5170738771
 10
313.6793326423
 20
-47.3179053806
 10
312.2754696211
 20
-49.2060036615
 10
310.9462065978
 20
-51.1705538638
 10
309.6991574704
 20
-53.2003032217
 10
308.5414652236
 20
-55.2836255149
 10
307.4797610136
 20
-57.4085876619
 10
306.5201261861
 20
-59.563018072
 10
305.6680574423
 20
-61.7345763627
 10
304.928435355
 20
-63.9108240451
 10
304.3054964124
 20
-66.0792957693
 10
303.8028087524
 20
-68.2275707257
 10
303.4232517244
 20
-70.3433437899
 10
303.1689993966
 20
-72.4144960055
 10
303.0415081035
 20
-74.429164
 10
303.0415081035
 20
-76.3758079377
 10
303.1689993966
 20
-78.2432776184
 10
303.4232517244
 20
-80.0208763448
 10
303.8028087524
 20
-81.6984221924
 10
304.3054964124
 20
-83.2663063306
 10
304.928435355
 20
-84.7155480609
 10
305.6680574423
 20
-86.037846258
 10
306.5201261861
 20
-87.2256269175
 10
307.4797610136
 20
-88.2720865395
 10
308.5414652236
 20
-89.1712310979
 10
309.6991574704
 20
-89.9179103742
 10
310.9462065978
 20
-90.507847457
 10
312.2754696211
 20
-90.9376632402
 10
313.6793326423
 20
-91.204895778
 10
315.149754461
 20
-91.3080143864
 10
316.6783126343
 20
-91.2464284116
 10
318.2562517193
 20
-91.0204906123
 10
319.8745334238
 20
-90.6314951398
 10
321.5238883769
 20
-90.0816701249
 10
323.1948692227
 20
-89.3741649157
 10
324.8779047343
 20
-88.5130320377
 10
326.5633546366
 20
-87.5032039822
 10
328.2415648252
 20
-86.3504649528
 10
329.9029226642
 20
-85.0614177343
 10
331.5379120463
 20
-83.6434458724
 10
333.1371679004
 20
-82.1046713816
 10
334.6915298338
 20
-80.4539082227
 10
336.1920946021
 20
-78.7006118176
 10
337.6302671061
 20
-76.8548248894
 10
338.9978096241
 20
-74.9271199385
 10
340.2868889964
 20
-72.9285386842
 10
341.4901214929
 20
-70.8705288189
 10
342.600615107
 20
-68.7648784369
 10
343.6120090318
 20
-66.6236485128
 10
344.5185100945
 20
-64.4591038176
 10
345.314925939
 20
-62.2836426675
 10
345.9966947676
 20
-60.1097259068
 10
346.5599114702
 20
-57.9498055339
 10
347.0013499924
 20
-55.8162533771
 10
347.3184818144
 20
-53.72129023
 10
347.5094904339
 20
-51.6769158516
 10
347.5732817707
 20
-49.6948402334
  0
LWPOLYLINE
  5
CC
330
1F
100
AcDbEntity
  8
0
  6
Continuous
 62
     7
370
    25
100
AcDbPolyline
 90
       12
 70
   128
 43
0.0
 10
500.308346507
 20
-137.8669163103
 10
500.2445551702
 20
-135.9584926018
 10
500.0535465507
 20
-134.1346520813
 10
499.7364147287
 20
-132.4058415421
 10
499.2949762065
 20
-130.7819634543
 10
498.7317595039
 20
-129.2723192447
 10
498.0499906753
 20
-127.8855560185
 10
497.2535748308
 20
-126.6296170299
 10
496.3470737681
 20
-125.5116961837
 10
495.3356798433
 20
-124.5381968293
 10
494.2251862292
 20
-123.7146950828
 10
493.7832029386
 20
-123.4448049065
  0
LWPOLYLINE
  5
CD
330
1F
100
AcDbEntity
  8
0
  6
Continuous
 62
     7
370
    25
100
AcDbPolyline
 90
       33
 70
   128
 43
0.0
 10
462.2857628606
 20
-178.0058832365
 10
462.4342222067
 20
-178.089986451
 10
463.6812713341
 20
-178.6799235339
 10
465.0105343574
 20
-179.1097393171
 10
466.4143973786
 20
-179.3769718548
 10
467.8848191973
 20
-179.4800904633
 10
469.4133773705
 20
-179.4185044884
 10
470.9913164556
 20
-179.1925666891
 10
472.6095981601
 20
-178.8035712166
 10
474.2589531132
 20
-178.2537462018
 10
475.929933959
 20
-177.5462409925
 10
477.6129694706
 20
-176.6851081146
 10
479.2984193729
 20
-175.6752800591
 10
480.9766295615
 20
-174.5225410297
 10
482.6379874005
 20
-173.2334938112
 10
484.2729767826
 20
-171.8155219493
 10
485.8722326367
 20
-170.2767474584
 10
487.4265945701
 20
-168.6259842995
 10
488.9271593384
 20
-166.8726878944
 10
490.3653318424
 20
-165.0269009663
 10
491.7328743604
 20
-163.0991960153
 10
493.0219537327
 20
-161.100614761
 10
494.2251862292
 20
-159.0426048958
 10
495.3356798433
 20
-156.9369545137
 10
496.3470737681
 20
-154.7957245896
 10
497.2535748308
 20
-152.6311798945
 10
498.0499906753
 20
-150.4557187443
 10
498.7317595039
 20
-148.2818019837
 10
499.2949762065
 20
-146.1218816108
 10
499.7364147287
 20
-143.988329454
 10
500.0535465507
 20
-141.8933663068
 10
500.2445551702
 20
-139.8489919285
 10
500.308346507
 20
-137.8669163103
  0
LWPOLYLINE
  5
CE
330
1F
100
AcDbEntity
  8
0
  6
Continuous
 62
     7
370
    25
100
AcDbPolyline
 90
       75
 70
   128
 43
0.0
 10
343.4720624398
 20
-52.0624237577
 10
343.4065952806
 20
-50.3205564348
 10
343.2106654953
 20
-48.6668260789
 10
342.8856847626
 20
-47.1131478553
 10
342.433994576
 20
-45.6707160511
 10
341.8588493738
 20
-44.3499234205
 10
341.1643930902
 20
-43.1602863047
 10
340.3556292987
 20
-42.1103760664
 10
339.438385161
 20
-41.2077573328
 10
338.419269442
 20
-40.4589334927
 10
337.305624894
 20
-39.869299839
 10
336.1054753513
 20
-39.4431046956
 10
334.827467919
 20
-39.1834188084
 10
333.4808106698
 20
-39.0921132201
 10
332.0752063002
 20
-39.1698457895
 10
330.6207822218
 20
-39.4160564518
 10
329.1280175934
 20
-39.8289712534
 10
327.6076678184
 20
-40.4056151337
 10
326.0706870517
 20
-41.1418333605
 10
324.528149275
 20
-42.0323214644
 10
322.9911685083
 20
-43.0706634583
 10
321.4708187333
 20
-44.2493780643
 10
319.9780541049
 20
-45.5599726167
 10
318.5236300264
 20
-46.9930042517
 10
317.1180256568
 20
-48.5381479436
 10
315.7713684077
 20
-50.1842708965
 10
314.4933609753
 20
-51.919512757
 10
313.2932114327
 20
-53.7313710677
 10
312.1795668846
 20
-55.6067913478
 10
311.1604511657
 20
-57.5322611514
 10
310.243207028
 20
-59.4939074244
 10
309.4344432365
 20
-61.4775964603
 10
308.7399869529
 20
-63.4690357343
 10
308.1648417506
 20
-65.4538768808
 10
307.7131515641
 20
-67.4178190737
 10
307.3881708313
 20
-69.3467120647
 10
307.1922410461
 20
-71.2266581355
 10
307.1267738868
 20
-73.0441122315
 10
307.1922410461
 20
-74.7859795545
 10
307.3881708313
 20
-76.4397099103
 10
307.7131515641
 20
-77.9933881339
 10
308.1648417506
 20
-79.4358199381
 10
308.7399869529
 20
-80.7566125687
 10
309.4344432365
 20
-81.9462496845
 10
310.243207028
 20
-82.9961599229
 10
311.1604511657
 20
-83.8987786564
 10
312.1795668846
 20
-84.6476024965
 10
313.2932114327
 20
-85.2372361503
 10
314.4933609753
 20
-85.6634312936
 10
315.7713684077
 20
-85.9231171809
 10
317.1180256568
 20
-86.0144227692
 10
318.5236300264
 20
-85.9366901997
 10
319.9780541049
 20
-85.6904795375
 10
321.4708187333
 20
-85.2775647359
 10
322.9911685083
 20
-84.7009208555
 10
324.528149275
 20
-83.9647026288
 10
326.0706870517
 20
-83.0742145249
 10
327.6076678184
 20
-82.0358725309
 10
329.1280175934
 20
-80.8571579249
 10
330.6207822218
 20
-79.5465633725
 10
332.0752063002
 20
-78.1135317375
 10
333.4808106698
 20
-76.5683880457
 10
334.827467919
 20
-74.9222650927
 10
336.1054753513
 20
-73.1870232322
 10
337.305624894
 20
-71.3751649216
 10
338.419269442
 20
-69.4997446414
 10
339.438385161
 20
-67.5742748378
 10
340.3556292987
 20
-65.6126285649
 10
341.1643930902
 20
-63.6289395289
 10
341.8588493738
 20
-61.6375002549
 10
342.433994576
 20
-59.6526591085
 10
342.8856847626
 20
-57.6887169155
 10
343.2106654953
 20
-55.7598239245
 10
343.4065952806
 20
-53.8798778538
 10
343.4720624398
 20
-52.0624237577
  0
LWPOLYLINE
  5
CF
330
1F
100
AcDbEntity
  8
0
  6
Continuous
 62
     7
370
    25
100
AcDbPolyline
 90
       84
 70
   128
 43
0.0
 10
499.6012397258
 20
-75.8198998117
 10
499.537448389
 20
-73.8378241935
 10
499.3464397695
 20
-71.7934498152
 10
499.0293079475
 20
-69.698486668
 10
498.5878694253
 20
-67.5649345112
 10
498.0246527227
 20
-65.4050141383
 10
497.3428838941
 20
-63.2310973777
 10
496.5464680496
 20
-61.0556362275
 10
495.6399669869
 20
-58.8910915324
 10
494.6285730621
 20
-56.7498616083
 10
493.518079448
 20
-54.6442112262
 10
492.3148469515
 20
-52.586201361
 10
491.0257675792
 20
-50.5876201067
 10
489.6582250612
 20
-48.6599151557
 10
488.2200525572
 20
-46.8141282276
 10
486.7194877889
 20
-45.0608318225
 10
485.1651258555
 20
-43.4100686636
 10
483.5658700014
 20
-41.8712941727
 10
481.9308806193
 20
-40.4533223108
 10
480.2695227803
 20
-39.1642750923
 10
478.5913125917
 20
-38.0115360629
 10
476.9058626894
 20
-37.0017080074
 10
475.2228271778
 20
-36.1405751295
 10
473.551846332
 20
-35.4330699202
 10
471.9024913789
 20
-34.8832449054
 10
470.2842096744
 20
-34.4942494329
 10
468.7062705894
 20
-34.2683116336
 10
467.1777124161
 20
-34.2067256587
 10
465.7072905974
 20
-34.3098442672
 10
464.3034275762
 20
-34.5770768049
 10
462.9741645529
 20
-35.0068925881
 10
461.7271154255
 20
-35.596829671
 10
460.5694231787
 20
-36.3435089472
 10
459.5077189687
 20
-37.2426535056
 10
458.5480841412
 20
-38.2891131276
 10
457.6960153974
 20
-39.4768937872
 10
456.9563933101
 20
-40.7991919843
 10
456.3334543675
 20
-42.2484337146
 10
455.8307667075
 20
-43.8163178528
 10
455.4512096795
 20
-45.4938637004
 10
455.1969573518
 20
-47.2714624268
 10
455.0694660586
 20
-49.1389321074
 10
455.0694660586
 20
-51.0855760451
 10
455.1969573518
 20
-53.1002440397
 10
455.4512096795
 20
-55.1713962552
 10
455.8307667075
 20
-57.2871693195
 10
456.3334543675
 20
-59.4354442759
 10
456.9563933101
 20
-61.6039160001
 10
457.6960153974
 20
-63.7801636824
 10
458.5480841412
 20
-65.9517219732
 10
459.5077189687
 20
-68.1061523832
 10
460.5694231787
 20
-70.2311145302
 10
461.7271154255
 20
-72.3144368234
 10
462.9741645529
 20
-74.3441861814
 10
464.3034275762
 20
-76.3087363836
 10
465.7072905974
 20
-78.1968346645
 10
467.1777124161
 20
-79.997666168
 10
468.7062705894
 20
-81.7009158944
 10
470.2842096744
 20
-83.2968277835
 10
471.9024913789
 20
-84.7762605965
 10
473.551846332
 20
-86.1307402763
 10
475.2228271778
 20
-87.3525084858
 10
476.9058626894
 20
-88.4345670475
 10
478.5913125917
 20
-89.3707180278
 10
480.2695227803
 20
-90.1555992388
 10
481.9308806193
 20
-90.784714952
 10
483.5658700014
 20
-91.2544616495
 10
485.1651258555
 20
-91.5621486647
 10
486.7194877889
 20
-91.7060135943
 10
488.2200525572
 20
-91.6852323931
 10
489.6582250612
 20
-91.4999240938
 10
491.0257675792
 20
-91.1511501257
 10
492.3148469515
 20
-90.6409082344
 10
493.518079448
 20
-89.9721210392
 10
494.6285730621
 20
-89.1486192927
 10
495.6399669869
 20
-88.1751199383
 10
496.5464680496
 20
-87.0571990921
 10
497.3428838941
 20
-85.8012601035
 10
498.0246527227
 20
-84.4144968773
 10
498.5878694253
 20
-82.9048526677
 10
499.0293079475
 20
-81.28097458
 10
499.3464397695
 20
-79.5521640407
 10
499.537448389
 20
-77.7283235202
 10
499.6012397258
 20
-75.8198998117
  0
LWPOLYLINE
  5
D0
330
1F
100
AcDbEntity
  8
0
  6
Continuous
 62
     7
370
    25
100
AcDbPolyline
 90
       75
 70
   128
 43
0.0
 10
495.5000203949
 20
-73.4523162875
 10
495.4345532357
 20
-71.6348621914
 10
495.2386234504
 20
-69.7549161206
 10
494.9136427177
 20
-67.8260231297
 10
494.4619525311
 20
-65.8620809367
 10
493.8868073289
 20
-63.8772397902
 10
493.1923510453
 20
-61.8858005162
 10
492.3835872538
 20
-59.9021114803
 10
491.4663431161
 20
-57.9404652073
 10
490.4472273971
 20
-56.0149954038
 10
489.3335828491
 20
-54.1395751236
 10
488.1334333064
 20
-52.3277168129
 10
486.8554258741
 20
-50.5924749525
 10
485.508768625
 20
-48.9463519995
 10
484.1031642553
 20
-47.4012083077
 10
482.6487401769
 20
-45.9681766726
 10
481.1559755485
 20
-44.6575821202
 10
479.6356257735
 20
-43.4788675142
 10
478.0986450068
 20
-42.4405255203
 10
476.5561072301
 20
-41.5500374164
 10
475.0191264634
 20
-40.8138191897
 10
473.4987766884
 20
-40.2371753093
 10
472.00601206
 20
-39.8242605077
 10
470.5515879815
 20
-39.5780498454
 10
469.1459836119
 20
-39.500317276
 10
467.7993263628
 20
-39.5916228643
 10
466.5213189305
 20
-39.8513087515
 10
465.3211693878
 20
-40.2775038949
 10
464.2075248398
 20
-40.8671375486
 10
463.1884091208
 20
-41.6159613887
 10
462.2711649831
 20
-42.5185801223
 10
461.4624011916
 20
-43.5684903606
 10
460.767944908
 20
-44.7581274764
 10
460.1927997057
 20
-46.078920107
 10
459.7411095192
 20
-47.5213519112
 10
459.4161287864
 20
-49.0750301348
 10
459.2201990012
 20
-50.7287604907
 10
459.1547318419
 20
-52.4706278136
 10
459.2201990012
 20
-54.2880819097
 10
459.4161287864
 20
-56.1680279804
 10
459.7411095192
 20
-58.0969209714
 10
460.1927997057
 20
-60.0608631644
 10
460.767944908
 20
-62.0457043108
 10
461.4624011916
 20
-64.0371435848
 10
462.2711649831
 20
-66.0208326208
 10
463.1884091208
 20
-67.9824788937
 10
464.2075248398
 20
-69.9079486973
 10
465.3211693878
 20
-71.7833689775
 10
466.5213189305
 20
-73.5952272881
 10
467.7993263628
 20
-75.3304691486
 10
469.1459836119
 20
-76.9765921016
 10
470.5515879815
 20
-78.5217357934
 10
472.00601206
 20
-79.9547674284
 10
473.4987766884
 20
-81.2653619808
 10
475.0191264634
 20
-82.4440765869
 10
476.5561072301
 20
-83.4824185808
 10
478.0986450068
 20
-84.3729066847
 10
479.6356257735
 20
-85.1091249114
 10
481.1559755485
 20
-85.6857687918
 10
482.6487401769
 20
-86.0986835934
 10
484.1031642553
 20
-86.3448942557
 10
485.508768625
 20
-86.4226268251
 10
486.8554258741
 20
-86.3313212368
 10
488.1334333064
 20
-86.0716353495
 10
489.3335828491
 20
-85.6454402062
 10
490.4472273971
 20
-85.0558065525
 10
491.4663431161
 20
-84.3069827124
 10
492.3835872538
 20
-83.4043639788
 10
493.1923510453
 20
-82.3544537405
 10
493.8868073289
 20
-81.1648166246
 10
494.4619525311
 20
-79.8440239941
 10
494.9136427177
 20
-78.4015921898
 10
495.2386234504
 20
-76.8479139662
 10
495.4345532357
 20
-75.1941836104
 10
495.5000203949
 20
-73.4523162875
  0
ENDSEC
  0
SECTION
  2
OBJECTS
  0
DICTIONARY
  5
C
330
0
100
AcDbDictionary
281
     1
  3
ACAD_GROUP
350
D
  3
ACAD_LAYOUT
350
1A
  3
ACAD_MLINESTYLE
350
17
  3
ACAD_PLOTSETTINGS
350
19
  3
ACAD_PLOTSTYLENAME
350
E
  3
ACAD_SCALELIST
350
47
  3
DWGPROPS
350
D1
  0
DICTIONARY
  5
D
102
{ACAD_REACTORS
330
C
102
}
330
C
100
AcDbDictionary
281
     1
  0
DICTIONARY
  5
1A
102
{ACAD_REACTORS
330
C
102
}
330
C
100
AcDbDictionary
281
     1
  3
Layout1
350
1E
  3
Layout2
350
26
  3
Model
350
22
  0
DICTIONARY
  5
17
102
{ACAD_REACTORS
330
C
102
}
330
C
100
AcDbDictionary
281
     1
  3
Standard
350
18
  0
DICTIONARY
  5
19
102
{ACAD_REACTORS
330
C
102
}
330
C
100
AcDbDictionary
281
     1
  0
ACDBDICTIONARYWDFLT
  5
E
102
{ACAD_REACTORS
330
C
102
}
330
C
100
AcDbDictionary
281
     1
  3
Normal
350
F
100
AcDbDictionaryWithDefault
340
F
  0
DICTIONARY
  5
47
102
{ACAD_REACTORS
330
C
102
}
330
C
100
AcDbDictionary
281
     1
  3
A0
350
48
  3
A1
350
49
  3
A2
350
4A
  3
A3
350
4B
  3
A4
350
4C
  3
A5
350
4D
  3
A6
350
4E
  3
A7
350
4F
  3
A8
350
50
  3
A9
350
51
  3
B0
350
52
  3
B1
350
53
  3
B2
350
54
  3
B3
350
55
  3
B4
350
56
  3
B5
350
57
  3
B6
350
58
  3
B7
350
59
  3
B8
350
5A
  3
B9
350
5B
  3
C0
350
5C
  3
C1
350
5D
  3
C2
350
5E
  3
C3
350
5F
  3
C4
350
60
  3
C5
350
61
  3
C6
350
62
  3
C7
350
63
  3
C8
350
64
  3
C9
350
65
  3
D0
350
66
  3
D1
350
67
  3
D2
350
68
  0
XRECORD
  5
D1
102
{ACAD_REACTORS
330
C
102
}
330
C
100
AcDbXrecord
280
     1
  1
DWGPROPS COOKIE
  2

  3

  4

  6

  7

  8
b.kav
  9

300
=
301
=
302
=
303
=
304
=
305
=
306
=
307
=
308
=
309
=
 40
0.0
 41
2460608.40527581
 42
2460608.40527581
  1

 90
        0
  0
LAYOUT
  5
1E
102
{ACAD_REACTORS
330
1A
102
}
330
1A
100
AcDbPlotSettings
  1

  2
none_device
  4

  6

 40
0.0
 41
0.0
 42
0.0
 43
0.0
 44
0.0
 45
0.0
 46
0.0
 47
0.0
 48
0.0
 49
0.0
140
0.0
141
0.0
142
1.0
143
1.0
 70
   688
 72
     1
 73
     0
 74
     5
  7

 75
    16
147
1.0
148
0.0
149
0.0
100
AcDbLayout
  1
Layout1
 70
     1
 71
     1
 10
0.0
 20
0.0
 11
420.0
 21
297.0
 12
0.0
 22
0.0
 32
0.0
 14
1.0000000000E+20
 24
1.0000000000E+20
 34
1.0000000000E+20
 15
-1.0000000000E+20
 25
-1.0000000000E+20
 35
-1.0000000000E+20
146
0.0
 13
0.0
 23
0.0
 33
0.0
 16
1.0
 26
0.0
 36
0.0
 17
0.0
 27
1.0
 37
0.0
 76
     0
330
1B
  0
LAYOUT
  5
26
102
{ACAD_REACTORS
330
1A
102
}
330
1A
100
AcDbPlotSettings
  1

  2
none_device
  4

  6

 40
0.0
 41
0.0
 42
0.0
 43
0.0
 44
0.0
 45
0.0
 46
0.0
 47
0.0
 48
0.0
 49
0.0
140
0.0
141
0.0
142
1.0
143
1.0
 70
   688
 72
     1
 73
     0
 74
     5
  7

 75
    16
147
1.0
148
0.0
149
0.0
100
AcDbLayout
  1
Layout2
 70
     1
 71
     2
 10
0.0
 20
0.0
 11
0.0
 21
0.0
 12
0.0
 22
0.0
 32
0.0
 14
0.0
 24
0.0
 34
0.0
 15
0.0
 25
0.0
 35
0.0
146
0.0
 13
0.0
 23
0.0
 33
0.0
 16
1.0
 26
0.0
 36
0.0
 17
0.0
 27
1.0
 37
0.0
 76
     0
330
23
  0
LAYOUT
  5
22
102
{ACAD_REACTORS
330
1A
102
}
330
1A
100
AcDbPlotSettings
  1

  2
none_device
  4
Letter_(8.50_x_11.00_Inches)
  6

 40
6.35
 41
6.35
 42
6.35000508
 43
6.35000508
 44
215.9
 45
279.4
 46
0.0
 47
0.0
 48
0.0
 49
0.0
140
0.0
141
0.0
142
1.0
143
1.0
 70
  1712
 72
     1
 73
     0
 74
     0
  7

 75
     0
147
1.0
148
0.0
149
0.0
100
AcDbLayout
  1
Model
 70
     1
 71
     0
 10
0.0
 20
0.0
 11
279.4
 21
215.9
 12
0.0
 22
0.0
 32
0.0
 14
0.0
 24
0.0
 34
0.0
 15
279.4
 25
215.9
 35
0.0
146
0.0
 13
0.0
 23
0.0
 33
0.0
 16
1.0
 26
0.0
 36
0.0
 17
0.0
 27
1.0
 37
0.0
 76
     0
330
1F
331
29
  0
MLINESTYLE
  5
18
102
{ACAD_REACTORS
330
17
102
}
330
17
100
AcDbMlineStyle
  2
Standard
 70
     0
  3

 62
   256
 51
90.0
 52
90.0
 71
     2
 49
0.5
 62
   256
  6
BYLAYER
 49
-0.5
 62
   256
  6
BYLAYER
  0
ACDBPLACEHOLDER
  5
F
102
{ACAD_REACTORS
330
E
102
}
330
E
  0
SCALE
  5
48
102
{ACAD_REACTORS
330
47
102
}
330
47
100
AcDbScale
 70
     0
300
1:1
140
1.0
141
1.0
290
     1
  0
SCALE
  5
49
102
{ACAD_REACTORS
330
47
102
}
330
47
100
AcDbScale
 70
     0
300
1:2
140
1.0
141
2.0
290
     0
  0
SCALE
  5
4A
102
{ACAD_REACTORS
330
47
102
}
330
47
100
AcDbScale
 70
     0
300
1:4
140
1.0
141
4.0
290
     0
  0
SCALE
  5
4B
102
{ACAD_REACTORS
330
47
102
}
330
47
100
AcDbScale
 70
     0
300
1:5
140
1.0
141
5.0
290
     0
  0
SCALE
  5
4C
102
{ACAD_REACTORS
330
47
102
}
330
47
100
AcDbScale
 70
     0
300
1:8
140
1.0
141
8.0
290
     0
  0
SCALE
  5
4D
102
{ACAD_REACTORS
330
47
102
}
330
47
100
AcDbScale
 70
     0
300
1:10
140
1.0
141
10.0
290
     0
  0
SCALE
  5
4E
102
{ACAD_REACTORS
330
47
102
}
330
47
100
AcDbScale
 70
     0
300
1:16
140
1.0
141
16.0
290
     0
  0
SCALE
  5
4F
102
{ACAD_REACTORS
330
47
102
}
330
47
100
AcDbScale
 70
     0
300
1:20
140
1.0
141
20.0
290
     0
  0
SCALE
  5
50
102
{ACAD_REACTORS
330
47
102
}
330
47
100
AcDbScale
 70
     0
300
1:30
140
1.0
141
30.0
290
     0
  0
SCALE
  5
51
102
{ACAD_REACTORS
330
47
102
}
330
47
100
AcDbScale
 70
     0
300
1:40
140
1.0
141
40.0
290
     0
  0
SCALE
  5
52
102
{ACAD_REACTORS
330
47
102
}
330
47
100
AcDbScale
 70
     0
300
1:50
140
1.0
141
50.0
290
     0
  0
SCALE
  5
53
102
{ACAD_REACTORS
330
47
102
}
330
47
100
AcDbScale
 70
     0
300
1:100
140
1.0
141
100.0
290
     0
  0
SCALE
  5
54
102
{ACAD_REACTORS
330
47
102
}
330
47
100
AcDbScale
 70
     0
300
2:1
140
2.0
141
1.0
290
     0
  0
SCALE
  5
55
102
{ACAD_REACTORS
330
47
102
}
330
47
100
AcDbScale
 70
     0
300
4:1
140
4.0
141
1.0
290
     0
  0
SCALE
  5
56
102
{ACAD_REACTORS
330
47
102
}
330
47
100
AcDbScale
 70
     0
300
8:1
140
8.0
141
1.0
290
     0
  0
SCALE
  5
57
102
{ACAD_REACTORS
330
47
102
}
330
47
100
AcDbScale
 70
     0
300
10:1
140
10.0
141
1.0
290
     0
  0
SCALE
  5
58
102
{ACAD_REACTORS
330
47
102
}
330
47
100
AcDbScale
 70
     0
300
100:1
140
100.0
141
1.0
290
     0
  0
SCALE
  5
59
102
{ACAD_REACTORS
330
47
102
}
330
47
100
AcDbScale
 70
     0
300
1/128" = 1'-0"
140
0.0078125
141
12.0
290
     0
  0
SCALE
  5
5A
102
{ACAD_REACTORS
330
47
102
}
330
47
100
AcDbScale
 70
     0
300
1/64" = 1'-0"
140
0.015625
141
12.0
290
     0
  0
SCALE
  5
5B
102
{ACAD_REACTORS
330
47
102
}
330
47
100
AcDbScale
 70
     0
300
1/32" = 1'-0"
140
0.03125
141
12.0
290
     0
  0
SCALE
  5
5C
102
{ACAD_REACTORS
330
47
102
}
330
47
100
AcDbScale
 70
     0
300
1/16" = 1'-0"
140
0.0625
141
12.0
290
     0
  0
SCALE
  5
5D
102
{ACAD_REACTORS
330
47
102
}
330
47
100
AcDbScale
 70
     0
300
3/32" = 1'-0"
140
0.09375
141
12.0
290
     0
  0
SCALE
  5
5E
102
{ACAD_REACTORS
330
47
102
}
330
47
100
AcDbScale
 70
     0
300
1/8" = 1'-0"
140
0.125
141
12.0
290
     0
  0
SCALE
  5
5F
102
{ACAD_REACTORS
330
47
102
}
330
47
100
AcDbScale
 70
     0
300
3/16" = 1'-0"
140
0.1875
141
12.0
290
     0
  0
SCALE
  5
60
102
{ACAD_REACTORS
330
47
102
}
330
47
100
AcDbScale
 70
     0
300
1/4" = 1'-0"
140
0.25
141
12.0
290
     0
  0
SCALE
  5
61
102
{ACAD_REACTORS
330
47
102
}
330
47
100
AcDbScale
 70
     0
300
3/8" = 1'-0"
140
0.375
141
12.0
290
     0
  0
SCALE
  5
62
102
{ACAD_REACTORS
330
47
102
}
330
47
100
AcDbScale
 70
     0
300
1/2" = 1'-0"
140
0.5
141
12.0
290
     0
  0
SCALE
  5
63
102
{ACAD_REACTORS
330
47
102
}
330
47
100
AcDbScale
 70
     0
300
3/4" = 1'-0"
140
0.75
141
12.0
290
     0
  0
SCALE
  5
64
102
{ACAD_REACTORS
330
47
102
}
330
47
100
AcDbScale
 70
     0
300
1" = 1'-0"
140
1.0
141
12.0
290
     0
  0
SCALE
  5
65
102
{ACAD_REACTORS
330
47
102
}
330
47
100
AcDbScale
 70
     0
300
1-1/2" = 1'-0"
140
1.5
141
12.0
290
     0
  0
SCALE
  5
66
102
{ACAD_REACTORS
330
47
102
}
330
47
100
AcDbScale
 70
     0
300
3" = 1'-0"
140
3.0
141
12.0
290
     0
  0
SCALE
  5
67
102
{ACAD_REACTORS
330
47
102
}
330
47
100
AcDbScale
 70
     0
300
6" = 1'-0"
140
6.0
141
12.0
290
     0
  0
SCALE
  5
68
102
{ACAD_REACTORS
330
47
102
}
330
47
100
AcDbScale
 70
     0
300
1'-0" = 1'-0"
140
12.0
141
12.0
290
     0
  0
ENDSEC
  0
EOF
